ISO-10303-21;
HEADER;
/* Generated by software containing ST-Developer
 * from STEP Tools, Inc. (www.steptools.com) 
 */

FILE_DESCRIPTION(
/* description */ (''),
/* implementation_level */ '2;1');

FILE_NAME(
/* name */ 
'C:/Users/NexxCat/Documents/GitHub/lab.ratrig.com/docs/src/cad/compone
nts/HW2125GC-Rubber foot with metal insert - Heavy Duty - 28_22_16.5mm.
step',
/* time_stamp */ '2022-10-11T10:53:45+01:00',
/* author */ (''),
/* organization */ (''),
/* preprocessor_version */ 'ST-DEVELOPER v19',
/* originating_system */ 'Autodesk Translation Framework v11.7.0.108',
/* authorisation */ '');

FILE_SCHEMA (('AUTOMOTIVE_DESIGN { 1 0 10303 214 3 1 1 }'));
ENDSEC;

DATA;
#10=MECHANICAL_DESIGN_GEOMETRIC_PRESENTATION_REPRESENTATION('',(#13),#274);
#11=SHAPE_REPRESENTATION_RELATIONSHIP('SRR','None',#281,#12);
#12=ADVANCED_BREP_SHAPE_REPRESENTATION('',(#14),#273);
#13=STYLED_ITEM('',(#290),#14);
#14=MANIFOLD_SOLID_BREP('Body1',#142);
#15=CONICAL_SURFACE('',#175,12.5,0.179853499792478);
#16=LINE('',#246,#19);
#17=LINE('',#258,#20);
#18=LINE('',#267,#21);
#19=VECTOR('',#198,2.5);
#20=VECTOR('',#213,5.);
#21=VECTOR('',#226,12.5);
#22=CYLINDRICAL_SURFACE('',#162,2.5);
#23=CYLINDRICAL_SURFACE('',#170,5.);
#24=FACE_BOUND('',#42,.T.);
#25=FACE_BOUND('',#46,.T.);
#26=FACE_BOUND('',#52,.T.);
#27=PLANE('',#160);
#28=PLANE('',#168);
#29=PLANE('',#179);
#30=FACE_OUTER_BOUND('',#40,.T.);
#31=FACE_OUTER_BOUND('',#41,.T.);
#32=FACE_OUTER_BOUND('',#43,.T.);
#33=FACE_OUTER_BOUND('',#44,.T.);
#34=FACE_OUTER_BOUND('',#45,.T.);
#35=FACE_OUTER_BOUND('',#47,.T.);
#36=FACE_OUTER_BOUND('',#48,.T.);
#37=FACE_OUTER_BOUND('',#49,.T.);
#38=FACE_OUTER_BOUND('',#50,.T.);
#39=FACE_OUTER_BOUND('',#51,.T.);
#40=EDGE_LOOP('',(#94,#95,#96,#97));
#41=EDGE_LOOP('',(#98));
#42=EDGE_LOOP('',(#99));
#43=EDGE_LOOP('',(#100,#101,#102,#103));
#44=EDGE_LOOP('',(#104,#105,#106,#107));
#45=EDGE_LOOP('',(#108));
#46=EDGE_LOOP('',(#109));
#47=EDGE_LOOP('',(#110,#111,#112,#113));
#48=EDGE_LOOP('',(#114,#115,#116,#117));
#49=EDGE_LOOP('',(#118,#119,#120,#121));
#50=EDGE_LOOP('',(#122,#123,#124,#125));
#51=EDGE_LOOP('',(#126));
#52=EDGE_LOOP('',(#127));
#53=CIRCLE('',#157,3.);
#54=CIRCLE('',#158,0.5);
#55=CIRCLE('',#159,2.5);
#56=CIRCLE('',#161,13.4008936414773);
#57=CIRCLE('',#163,2.5);
#58=CIRCLE('',#165,5.);
#59=CIRCLE('',#166,0.5);
#60=CIRCLE('',#167,5.5);
#61=CIRCLE('',#169,10.5827118232955);
#62=CIRCLE('',#171,5.);
#63=CIRCLE('',#173,13.8928285965273);
#64=CIRCLE('',#174,0.5);
#65=CIRCLE('',#176,11.0746467783455);
#66=CIRCLE('',#178,0.5);
#67=VERTEX_POINT('',#235);
#68=VERTEX_POINT('',#237);
#69=VERTEX_POINT('',#241);
#70=VERTEX_POINT('',#244);
#71=VERTEX_POINT('',#248);
#72=VERTEX_POINT('',#250);
#73=VERTEX_POINT('',#254);
#74=VERTEX_POINT('',#257);
#75=VERTEX_POINT('',#261);
#76=VERTEX_POINT('',#265);
#77=EDGE_CURVE('',#67,#67,#53,.T.);
#78=EDGE_CURVE('',#67,#68,#54,.T.);
#79=EDGE_CURVE('',#68,#68,#55,.T.);
#80=EDGE_CURVE('',#69,#69,#56,.T.);
#81=EDGE_CURVE('',#70,#70,#57,.T.);
#82=EDGE_CURVE('',#70,#68,#16,.T.);
#83=EDGE_CURVE('',#71,#71,#58,.T.);
#84=EDGE_CURVE('',#71,#72,#59,.T.);
#85=EDGE_CURVE('',#72,#72,#60,.T.);
#86=EDGE_CURVE('',#73,#73,#61,.T.);
#87=EDGE_CURVE('',#71,#74,#17,.T.);
#88=EDGE_CURVE('',#74,#74,#62,.T.);
#89=EDGE_CURVE('',#75,#75,#63,.T.);
#90=EDGE_CURVE('',#75,#69,#64,.T.);
#91=EDGE_CURVE('',#76,#76,#65,.T.);
#92=EDGE_CURVE('',#76,#75,#18,.T.);
#93=EDGE_CURVE('',#73,#76,#66,.T.);
#94=ORIENTED_EDGE('',*,*,#77,.T.);
#95=ORIENTED_EDGE('',*,*,#78,.T.);
#96=ORIENTED_EDGE('',*,*,#79,.T.);
#97=ORIENTED_EDGE('',*,*,#78,.F.);
#98=ORIENTED_EDGE('',*,*,#80,.F.);
#99=ORIENTED_EDGE('',*,*,#77,.F.);
#100=ORIENTED_EDGE('',*,*,#81,.T.);
#101=ORIENTED_EDGE('',*,*,#82,.T.);
#102=ORIENTED_EDGE('',*,*,#79,.F.);
#103=ORIENTED_EDGE('',*,*,#82,.F.);
#104=ORIENTED_EDGE('',*,*,#83,.T.);
#105=ORIENTED_EDGE('',*,*,#84,.T.);
#106=ORIENTED_EDGE('',*,*,#85,.T.);
#107=ORIENTED_EDGE('',*,*,#84,.F.);
#108=ORIENTED_EDGE('',*,*,#86,.F.);
#109=ORIENTED_EDGE('',*,*,#85,.F.);
#110=ORIENTED_EDGE('',*,*,#83,.F.);
#111=ORIENTED_EDGE('',*,*,#87,.T.);
#112=ORIENTED_EDGE('',*,*,#88,.F.);
#113=ORIENTED_EDGE('',*,*,#87,.F.);
#114=ORIENTED_EDGE('',*,*,#89,.T.);
#115=ORIENTED_EDGE('',*,*,#90,.T.);
#116=ORIENTED_EDGE('',*,*,#80,.T.);
#117=ORIENTED_EDGE('',*,*,#90,.F.);
#118=ORIENTED_EDGE('',*,*,#91,.F.);
#119=ORIENTED_EDGE('',*,*,#92,.T.);
#120=ORIENTED_EDGE('',*,*,#89,.F.);
#121=ORIENTED_EDGE('',*,*,#92,.F.);
#122=ORIENTED_EDGE('',*,*,#86,.T.);
#123=ORIENTED_EDGE('',*,*,#93,.T.);
#124=ORIENTED_EDGE('',*,*,#91,.T.);
#125=ORIENTED_EDGE('',*,*,#93,.F.);
#126=ORIENTED_EDGE('',*,*,#88,.T.);
#127=ORIENTED_EDGE('',*,*,#81,.F.);
#128=TOROIDAL_SURFACE('',#156,3.,0.5);
#129=TOROIDAL_SURFACE('',#164,5.5,0.5);
#130=TOROIDAL_SURFACE('',#172,13.4008936414773,0.5);
#131=TOROIDAL_SURFACE('',#177,10.5827118232955,0.5);
#132=ADVANCED_FACE('',(#30),#128,.T.);
#133=ADVANCED_FACE('',(#31,#24),#27,.T.);
#134=ADVANCED_FACE('',(#32),#22,.F.);
#135=ADVANCED_FACE('',(#33),#129,.T.);
#136=ADVANCED_FACE('',(#34,#25),#28,.T.);
#137=ADVANCED_FACE('',(#35),#23,.F.);
#138=ADVANCED_FACE('',(#36),#130,.T.);
#139=ADVANCED_FACE('',(#37),#15,.T.);
#140=ADVANCED_FACE('',(#38),#131,.T.);
#141=ADVANCED_FACE('',(#39,#26),#29,.T.);
#142=CLOSED_SHELL('',(#132,#133,#134,#135,#136,#137,#138,#139,#140,#141));
#143=DERIVED_UNIT_ELEMENT(#145,1.);
#144=DERIVED_UNIT_ELEMENT(#276,-3.);
#145=(
MASS_UNIT()
NAMED_UNIT(*)
SI_UNIT(.KILO.,.GRAM.)
);
#146=DERIVED_UNIT((#143,#144));
#147=MEASURE_REPRESENTATION_ITEM('density measure',
POSITIVE_RATIO_MEASURE(930.),#146);
#148=PROPERTY_DEFINITION_REPRESENTATION(#153,#150);
#149=PROPERTY_DEFINITION_REPRESENTATION(#154,#151);
#150=REPRESENTATION('material name',(#152),#273);
#151=REPRESENTATION('density',(#147),#273);
#152=DESCRIPTIVE_REPRESENTATION_ITEM('Rubber','Rubber');
#153=PROPERTY_DEFINITION('material property','material name',#283);
#154=PROPERTY_DEFINITION('material property','density of part',#283);
#155=AXIS2_PLACEMENT_3D('placement',#233,#180,#181);
#156=AXIS2_PLACEMENT_3D('',#234,#182,#183);
#157=AXIS2_PLACEMENT_3D('',#236,#184,#185);
#158=AXIS2_PLACEMENT_3D('',#238,#186,#187);
#159=AXIS2_PLACEMENT_3D('',#239,#188,#189);
#160=AXIS2_PLACEMENT_3D('',#240,#190,#191);
#161=AXIS2_PLACEMENT_3D('',#242,#192,#193);
#162=AXIS2_PLACEMENT_3D('',#243,#194,#195);
#163=AXIS2_PLACEMENT_3D('',#245,#196,#197);
#164=AXIS2_PLACEMENT_3D('',#247,#199,#200);
#165=AXIS2_PLACEMENT_3D('',#249,#201,#202);
#166=AXIS2_PLACEMENT_3D('',#251,#203,#204);
#167=AXIS2_PLACEMENT_3D('',#252,#205,#206);
#168=AXIS2_PLACEMENT_3D('',#253,#207,#208);
#169=AXIS2_PLACEMENT_3D('',#255,#209,#210);
#170=AXIS2_PLACEMENT_3D('',#256,#211,#212);
#171=AXIS2_PLACEMENT_3D('',#259,#214,#215);
#172=AXIS2_PLACEMENT_3D('',#260,#216,#217);
#173=AXIS2_PLACEMENT_3D('',#262,#218,#219);
#174=AXIS2_PLACEMENT_3D('',#263,#220,#221);
#175=AXIS2_PLACEMENT_3D('',#264,#222,#223);
#176=AXIS2_PLACEMENT_3D('',#266,#224,#225);
#177=AXIS2_PLACEMENT_3D('',#268,#227,#228);
#178=AXIS2_PLACEMENT_3D('',#269,#229,#230);
#179=AXIS2_PLACEMENT_3D('',#270,#231,#232);
#180=DIRECTION('axis',(0.,0.,1.));
#181=DIRECTION('refdir',(1.,0.,0.));
#182=DIRECTION('center_axis',(0.,0.,-1.));
#183=DIRECTION('ref_axis',(-1.,0.,0.));
#184=DIRECTION('center_axis',(0.,0.,1.));
#185=DIRECTION('ref_axis',(1.,0.,0.));
#186=DIRECTION('center_axis',(-1.22464679914735E-16,-1.,0.));
#187=DIRECTION('ref_axis',(1.,-1.22464679914735E-16,0.));
#188=DIRECTION('center_axis',(0.,0.,-1.));
#189=DIRECTION('ref_axis',(1.,0.,0.));
#190=DIRECTION('center_axis',(0.,0.,1.));
#191=DIRECTION('ref_axis',(1.,0.,0.));
#192=DIRECTION('center_axis',(0.,0.,-1.));
#193=DIRECTION('ref_axis',(1.,0.,0.));
#194=DIRECTION('center_axis',(0.,0.,-1.));
#195=DIRECTION('ref_axis',(-1.,0.,0.));
#196=DIRECTION('center_axis',(0.,0.,-1.));
#197=DIRECTION('ref_axis',(1.,0.,0.));
#198=DIRECTION('',(0.,0.,1.));
#199=DIRECTION('center_axis',(0.,0.,-1.));
#200=DIRECTION('ref_axis',(-1.,0.,0.));
#201=DIRECTION('center_axis',(0.,0.,1.));
#202=DIRECTION('ref_axis',(1.,0.,0.));
#203=DIRECTION('center_axis',(-1.22464679914735E-16,-1.,0.));
#204=DIRECTION('ref_axis',(1.,-1.22464679914735E-16,0.));
#205=DIRECTION('center_axis',(0.,0.,-1.));
#206=DIRECTION('ref_axis',(1.,0.,0.));
#207=DIRECTION('center_axis',(0.,0.,-1.));
#208=DIRECTION('ref_axis',(-1.,0.,0.));
#209=DIRECTION('center_axis',(0.,0.,1.));
#210=DIRECTION('ref_axis',(1.,0.,0.));
#211=DIRECTION('center_axis',(0.,0.,-1.));
#212=DIRECTION('ref_axis',(-1.,0.,0.));
#213=DIRECTION('',(0.,0.,1.));
#214=DIRECTION('center_axis',(0.,0.,-1.));
#215=DIRECTION('ref_axis',(1.,0.,0.));
#216=DIRECTION('center_axis',(0.,0.,-1.));
#217=DIRECTION('ref_axis',(-1.,0.,0.));
#218=DIRECTION('center_axis',(0.,0.,1.));
#219=DIRECTION('ref_axis',(1.,-6.12323399573677E-17,0.));
#220=DIRECTION('center_axis',(-1.22464679914735E-16,-1.,0.));
#221=DIRECTION('ref_axis',(1.,-1.22464679914735E-16,0.));
#222=DIRECTION('center_axis',(0.,0.,1.));
#223=DIRECTION('ref_axis',(-1.,0.,0.));
#224=DIRECTION('center_axis',(0.,0.,-1.));
#225=DIRECTION('ref_axis',(1.,-6.12323399573677E-17,0.));
#226=DIRECTION('',(0.178885438199983,-2.19071479305681E-17,0.983869910099908));
#227=DIRECTION('center_axis',(0.,0.,-1.));
#228=DIRECTION('ref_axis',(-1.,0.,0.));
#229=DIRECTION('center_axis',(-1.22464679914735E-16,-1.,0.));
#230=DIRECTION('ref_axis',(1.,-1.22464679914735E-16,0.));
#231=DIRECTION('center_axis',(0.,0.,-1.));
#232=DIRECTION('ref_axis',(-1.,0.,0.));
#233=CARTESIAN_POINT('',(0.,0.,0.));
#234=CARTESIAN_POINT('Origin',(0.,0.,-0.500000000000002));
#235=CARTESIAN_POINT('',(3.,-3.67394039744206E-16,-1.73472347597681E-15));
#236=CARTESIAN_POINT('Origin',(0.,0.,-1.73472347597681E-15));
#237=CARTESIAN_POINT('',(2.5,-3.06161699786838E-16,-0.500000000000002));
#238=CARTESIAN_POINT('Origin',(3.,-3.67394039744206E-16,-0.500000000000002));
#239=CARTESIAN_POINT('Origin',(0.,0.,-0.500000000000002));
#240=CARTESIAN_POINT('Origin',(-14.,0.,-1.71450551880629E-15));
#241=CARTESIAN_POINT('',(13.4008936414773,-1.64113615037493E-15,-1.73472347597681E-15));
#242=CARTESIAN_POINT('Origin',(0.,0.,-1.73472347597681E-15));
#243=CARTESIAN_POINT('Origin',(0.,0.,-3.25));
#244=CARTESIAN_POINT('',(2.5,-3.06161699786838E-16,-6.5));
#245=CARTESIAN_POINT('Origin',(0.,0.,-6.5));
#246=CARTESIAN_POINT('',(2.5,-3.06161699786838E-16,-3.25));
#247=CARTESIAN_POINT('Origin',(0.,0.,-16.));
#248=CARTESIAN_POINT('',(5.,-6.12323399573677E-16,-16.));
#249=CARTESIAN_POINT('Origin',(0.,0.,-16.));
#250=CARTESIAN_POINT('',(5.5,-6.73555739531044E-16,-16.5));
#251=CARTESIAN_POINT('Origin',(5.5,-6.73555739531044E-16,-16.));
#252=CARTESIAN_POINT('Origin',(0.,0.,-16.5));
#253=CARTESIAN_POINT('Origin',(-5.,0.,-16.5));
#254=CARTESIAN_POINT('',(10.5827118232955,-1.29600841606977E-15,-16.5));
#255=CARTESIAN_POINT('Origin',(0.,0.,-16.5));
#256=CARTESIAN_POINT('Origin',(0.,0.,-11.5));
#257=CARTESIAN_POINT('',(5.,-6.12323399573677E-16,-6.5));
#258=CARTESIAN_POINT('',(5.,-6.12323399573677E-16,-11.5));
#259=CARTESIAN_POINT('Origin',(0.,0.,-6.5));
#260=CARTESIAN_POINT('Origin',(0.,0.,-0.500000000000002));
#261=CARTESIAN_POINT('',(13.8928285965273,-1.70138080718399E-15,-0.589442719099994));
#262=CARTESIAN_POINT('Origin',(0.,-8.50690403591997E-16,-0.589442719099994));
#263=CARTESIAN_POINT('Origin',(13.4008936414773,-1.64113615037493E-15,-0.500000000000002));
#264=CARTESIAN_POINT('Origin',(0.,0.,-8.25));
#265=CARTESIAN_POINT('',(11.0746467783455,-1.35625307287883E-15,-16.0894427191));
#266=CARTESIAN_POINT('Origin',(0.,-6.78126536439416E-16,-16.0894427191));
#267=CARTESIAN_POINT('',(12.5,-1.53080849893419E-15,-8.25));
#268=CARTESIAN_POINT('Origin',(0.,0.,-16.));
#269=CARTESIAN_POINT('Origin',(10.5827118232955,-1.29600841606977E-15,-16.));
#270=CARTESIAN_POINT('Origin',(-2.5,0.,-6.5));
#271=UNCERTAINTY_MEASURE_WITH_UNIT(LENGTH_MEASURE(0.01),#275,
'DISTANCE_ACCURACY_VALUE',
'Maximum model space distance between geometric entities at asserted c
onnectivities');
#272=UNCERTAINTY_MEASURE_WITH_UNIT(LENGTH_MEASURE(0.01),#275,
'DISTANCE_ACCURACY_VALUE',
'Maximum model space distance between geometric entities at asserted c
onnectivities');
#273=(
GEOMETRIC_REPRESENTATION_CONTEXT(3)
GLOBAL_UNCERTAINTY_ASSIGNED_CONTEXT((#271))
GLOBAL_UNIT_ASSIGNED_CONTEXT((#275,#277,#278))
REPRESENTATION_CONTEXT('','3D')
);
#274=(
GEOMETRIC_REPRESENTATION_CONTEXT(3)
GLOBAL_UNCERTAINTY_ASSIGNED_CONTEXT((#272))
GLOBAL_UNIT_ASSIGNED_CONTEXT((#275,#277,#278))
REPRESENTATION_CONTEXT('','3D')
);
#275=(
LENGTH_UNIT()
NAMED_UNIT(*)
SI_UNIT(.MILLI.,.METRE.)
);
#276=(
LENGTH_UNIT()
NAMED_UNIT(*)
SI_UNIT($,.METRE.)
);
#277=(
NAMED_UNIT(*)
PLANE_ANGLE_UNIT()
SI_UNIT($,.RADIAN.)
);
#278=(
NAMED_UNIT(*)
SI_UNIT($,.STERADIAN.)
SOLID_ANGLE_UNIT()
);
#279=SHAPE_DEFINITION_REPRESENTATION(#280,#281);
#280=PRODUCT_DEFINITION_SHAPE('',$,#283);
#281=SHAPE_REPRESENTATION('',(#155),#273);
#282=PRODUCT_DEFINITION_CONTEXT('part definition',#287,'design');
#283=PRODUCT_DEFINITION('HW2125GC',
'Rubber foot with metal insert - Heavy Duty - 28_22_16.5mm v1',#284,#282);
#284=PRODUCT_DEFINITION_FORMATION('',$,#289);
#285=PRODUCT_RELATED_PRODUCT_CATEGORY(
'Rubber foot with metal insert - Heavy Duty - 28_22_16.5mm v1',
'Rubber foot with metal insert - Heavy Duty - 28_22_16.5mm v1',(#289));
#286=APPLICATION_PROTOCOL_DEFINITION('international standard',
'automotive_design',2009,#287);
#287=APPLICATION_CONTEXT(
'Core Data for Automotive Mechanical Design Process');
#288=PRODUCT_CONTEXT('part definition',#287,'mechanical');
#289=PRODUCT('HW2125GC',
'Rubber foot with metal insert - Heavy Duty - 28_22_16.5mm v1',$,(#288));
#290=PRESENTATION_STYLE_ASSIGNMENT((#291));
#291=SURFACE_STYLE_USAGE(.BOTH.,#292);
#292=SURFACE_SIDE_STYLE('',(#293));
#293=SURFACE_STYLE_FILL_AREA(#294);
#294=FILL_AREA_STYLE('Rubber - Soft',(#295));
#295=FILL_AREA_STYLE_COLOUR('Rubber - Soft',#296);
#296=COLOUR_RGB('Rubber - Soft',0.152941176470588,0.152941176470588,0.152941176470588);
ENDSEC;
END-ISO-10303-21;
